• (45) 9 9931-6589
  • (45) 3264-5367
  •  WhatsApp

Enter Sandman

Pin It

Enter Sandman

 (Riff 3)

   Say your prayers, little  one,

Don't forget, my son,

                A#5  A5 A#5 A5

To include everyone

Tuck you in, warm within,

Keep you free from sin

                      A#5  A5 A#5 A5

Till the Sandman, he comes

Yeah!

 (Riff 4)

  Am

Sleep with one eye open,

Gripping your pillow tight

Segunda Parte

(Refrão)

A5 D#5 D5   A5  D#5 D5

Exit, light,

A5 D#5 D5   G5

Ente , night

 A5 D#5 D5    G5

Ta.ke my hand,

 A#5   A5     A#5  A5  G5

We're off to never    land

(Primeira Parte com variação na letra)

(Riff 3)

Something's wrong, shut the light,

Heavy thoughts tonight

                          A#5  A5 A#5 A5

And they aren't of snow white

Dreams of war,

Dreams of liars,

Dreams of dragon's fire,

                         A#5  A5 A#5 A5

And of things that will bite

Yeah!

(Segunda Parte)

(Riff 4)

  Am

Sleep with one eye open,

Gripping your pillow tight

(Refrão)

A5 D#5 D5   A5  D#5 D5

E.xit, light,

A5 D#5 D5   G5

En____te , night

 A5 D#5 D5    G5

Ta.ke my hand,

 A#5   A5     A#5  A5  G5

We're off to never    land

(Solo)

  1. |---------------------------------------------------|
  2. |-10p9p8p7------------------------------------------|
  3. |----------9-9p7------------------------------------|
  4. |----------------9-9p7-5--7b9---5~~-----------------|
  5. |---------------------------------7~~~-5h7-4--------|
  6. |---------------------------------------------------|

Solo - Parte 15 de 15

  1. |---------------------------------------------------|
  2. |---------------------------------------------------|
  3. |---------------------------------------------------|
  4. |---------------------------------------------------|
  5. |-4~-----------0--2--2--2--2--2--2--2--2--2--2--2---|
  6. |---------------------------------------------------|

(Terceira Parte)

Now I lay me down to sleep,

Pray the lord my soul to keep

If I die before I wake,

Pray the lord my soul to take

Guitarra 2

Introdução - Guitarra 1

Hush little baby, don't say a word,

And never mind that noise you heard

It's just the beast under your bed,

In your closet, in your head

 (Refrão)

A5 D#5 D5   A5  D#5 D5

E.xit, light,

A5 D#5 D5   G5

En____te , night

 A5 D#5 D5    G5

Ta.ke my hand,

A5 D#5 D5   A5  D#5 D5

E.xit, light,

A5 D#5 D5   G5

En____te , night

 A5 D#5 D5    G5

Ta.ke my hand,

 A#5   A5     A#5  A5  G5

We're off to never    land